  0
SECTION
  2
HEADER
  9
$ACADVER
  1
AC1015
  9
$ACADMAINTVER
 70
     6
  9
$DWGCODEPAGE
  3
ANSI_1254
  9
$INSBASE
 10
0.0
 20
0.0
 30
0.0
  9
$EXTMIN
 10
0.0
 20
0.0
 30
0.0
  9
$EXTMAX
 10
279.4
 20
215.9
 30
0.0
  9
$LIMMIN
 10
0.0
 20
0.0
  9
$LIMMAX
 10
279.4
 20
215.9
  9
$ORTHOMODE
 70
     0
  9
$REGENMODE
 70
     1
  9
$FILLMODE
 70
     1
  9
$QTEXTMODE
 70
     0
  9
$MIRRTEXT
 70
     1
  9
$LTSCALE
 40
1.0
  9
$ATTMODE
 70
     1
  9
$TEXTSIZE
 40
3.5
  9
$TRACEWID
 40
1.0
  9
$TEXTSTYLE
  7
Standard
  9
$CLAYER
  8
0
  9
$CELTYPE
  6
ByLayer
  9
$CECOLOR
 62
   256
  9
$CELTSCALE
 40
1.0
  9
$DISPSILH
 70
     0
  9
$DIMSCALE
 40
1.0
  9
$DIMASZ
 40
3.5
  9
$DIMEXO
 40
1.0
  9
$DIMDLI
 40
3.75
  9
$DIMRND
 40
0.0
  9
$DIMDLE
 40
0.0
  9
$DIMEXE
 40
1.0
  9
$DIMTP
 40
0.0
  9
$DIMTM
 40
0.0
  9
$DIMTXT
 40
3.5
  9
$DIMCEN
 40
2.5
  9
$DIMTSZ
 40
0.0
  9
$DIMTOL
 70
     0
  9
$DIMLIM
 70
     0
  9
$DIMTIH
 70
     1
  9
$DIMTOH
 70
     1
  9
$DIMSE1
 70
     0
  9
$DIMSE2
 70
     0
  9
$DIMTAD
 70
     1
  9
$DIMZIN
 70
     0
  9
$DIMBLK
  1

  9
$DIMASO
 70
     1
  9
$DIMSHO
 70
     1
  9
$DIMPOST
  1

  9
$DIMAPOST
  1

  9
$DIMALT
 70
     0
  9
$DIMALTD
 70
     3
  9
$DIMALTF
 40
0.0393700787
  9
$DIMLFAC
 40
1.0
  9
$DIMTOFL
 70
     1
  9
$DIMTVP
 40
0.0
  9
$DIMTIX
 70
     0
  9
$DIMSOXD
 70
     0
  9
$DIMSAH
 70
     0
  9
$DIMBLK1
  1

  9
$DIMBLK2
  1

  9
$DIMSTYLE
  2
ISO-25
  9
$DIMCLRD
 70
     0
  9
$DIMCLRE
 70
     0
  9
$DIMCLRT
 70
     0
  9
$DIMTFAC
 40
1.0
  9
$DIMGAP
 40
1.524
  9
$DIMJUST
 70
     0
  9
$DIMSD1
 70
     0
  9
$DIMSD2
 70
     0
  9
$DIMTOLJ
 70
     0
  9
$DIMTZIN
 70
     0
  9
$DIMALTZ
 70
     0
  9
$DIMALTTZ
 70
     0
  9
$DIMUPT
 70
     0
  9
$DIMDEC
 70
     2
  9
$DIMTDEC
 70
     2
  9
$DIMALTU
 70
     2
  9
$DIMALTTD
 70
     3
  9
$DIMTXSTY
  7
Standard
  9
$DIMAUNIT
 70
     0
  9
$DIMADEC
 70
     2
  9
$DIMALTRND
 40
0.0
  9
$DIMAZIN
 70
     0
  9
$DIMDSEP
 70
    44
  9
$DIMATFIT
 70
     3
  9
$DIMFRAC
 70
     0
  9
$DIMLDRBLK
  1

  9
$DIMLUNIT
 70
     2
  9
$DIMLWD
 70
    -2
  9
$DIMLWE
 70
    -2
  9
$DIMTMOVE
 70
     0
  9
$LUNITS
 70
     2
  9
$LUPREC
 70
     2
  9
$SKETCHINC
 40
1.0
  9
$FILLETRAD
 40
10.0
  9
$AUNITS
 70
     0
  9
$AUPREC
 70
     2
  9
$MENU
  1
.
  9
$ELEVATION
 40
0.0
  9
$PELEVATION
 40
0.0
  9
$THICKNESS
 40
0.0
  9
$LIMCHECK
 70
     0
  9
$CHAMFERA
 40
0.0
  9
$CHAMFERB
 40
0.0
  9
$CHAMFERC
 40
0.0
  9
$CHAMFERD
 40
0.0
  9
$SKPOLY
 70
     0
  9
$TDCREATE
 40
2458985.682978009
  9
$TDUCREATE
 40
2458985.557978009
  9
$TDUPDATE
 40
2458985.682978391
  9
$TDUUPDATE
 40
2458985.557978391
  9
$TDINDWG
 40
0.0000000116
  9
$TDUSRTIMER
 40
0.0000000116
  9
$USRTIMER
 70
     1
  9
$ANGBASE
 50
0.0
  9
$ANGDIR
 70
     0
  9
$PDMODE
 70
     0
  9
$PDSIZE
 40
-1.0
  9
$PLINEWID
 40
0.0
  9
$SPLFRAME
 70
     0
  9
$SPLINETYPE
 70
     6
  9
$SPLINESEGS
 70
     8
  9
$HANDSEED
  5
CB
  9
$SURFTAB1
 70
     6
  9
$SURFTAB2
 70
     6
  9
$SURFTYPE
 70
     6
  9
$SURFU
 70
     6
  9
$SURFV
 70
     6
  9
$UCSBASE
  2

  9
$UCSNAME
  2

  9
$UCSORG
 10
0.0
 20
0.0
 30
0.0
  9
$UCSXDIR
 10
1.0
 20
0.0
 30
0.0
  9
$UCSYDIR
 10
0.0
 20
1.0
 30
0.0
  9
$UCSORTHOREF
  2

  9
$UCSORTHOVIEW
 70
     0
  9
$UCSORGTOP
 10
0.0
 20
0.0
 30
0.0
  9
$UCSORGBOTTOM
 10
0.0
 20
0.0
 30
0.0
  9
$UCSORGLEFT
 10
0.0
 20
0.0
 30
0.0
  9
$UCSORGRIGHT
 10
0.0
 20
0.0
 30
0.0
  9
$UCSORGFRONT
 10
0.0
 20
0.0
 30
0.0
  9
$UCSORGBACK
 10
0.0
 20
0.0
 30
0.0
  9
$PUCSBASE
  2

  9
$PUCSNAME
  2

  9
$PUCSORG
 10
0.0
 20
0.0
 30
0.0
  9
$PUCSXDIR
 10
1.0
 20
0.0
 30
0.0
  9
$PUCSYDIR
 10
0.0
 20
1.0
 30
0.0
  9
$PUCSORTHOREF
  2

  9
$PUCSORTHOVIEW
 70
     0
  9
$PUCSORGTOP
 10
0.0
 20
0.0
 30
0.0
  9
$PUCSORGBOTTOM
 10
0.0
 20
0.0
 30
0.0
  9
$PUCSORGLEFT
 10
0.0
 20
0.0
 30
0.0
  9
$PUCSORGRIGHT
 10
0.0
 20
0.0
 30
0.0
  9
$PUCSORGFRONT
 10
0.0
 20
0.0
 30
0.0
  9
$PUCSORGBACK
 10
0.0
 20
0.0
 30
0.0
  9
$USERI1
 70
     0
  9
$USERI2
 70
     0
  9
$USERI3
 70
     0
  9
$USERI4
 70
     0
  9
$USERI5
 70
     0
  9
$USERR1
 40
0.0
  9
$USERR2
 40
0.0
  9
$USERR3
 40
0.0
  9
$USERR4
 40
0.0
  9
$USERR5
 40
0.0
  9
$WORLDVIEW
 70
     1
  9
$SHADEDGE
 70
     3
  9
$SHADEDIF
 70
    70
  9
$TILEMODE
 70
     1
  9
$MAXACTVP
 70
    64
  9
$PINSBASE
 10
0.0
 20
0.0
 30
0.0
  9
$PLIMCHECK
 70
     0
  9
$PEXTMIN
 10
1.0000000000E+20
 20
1.0000000000E+20
 30
1.0000000000E+20
  9
$PEXTMAX
 10
-1.0000000000E+20
 20
-1.0000000000E+20
 30
-1.0000000000E+20
  9
$PLIMMIN
 10
0.0
 20
0.0
  9
$PLIMMAX
 10
420.0
 20
297.0
  9
$UNITMODE
 70
     0
  9
$VISRETAIN
 70
     1
  9
$PLINEGEN
 70
     0
  9
$PSLTSCALE
 70
     1
  9
$TREEDEPTH
 70
  3020
  9
$CMLSTYLE
  2
Standard
  9
$CMLJUST
 70
     0
  9
$CMLSCALE
 40
20.0
  9
$PROXYGRAPHICS
 70
     1
  9
$MEASUREMENT
 70
     1
  9
$CELWEIGHT
370
    -1
  9
$ENDCAPS
280
     0
  9
$JOINSTYLE
280
     0
  9
$LWDISPLAY
290
     1
  9
$INSUNITS
 70
     4
  9
$HYPERLINKBASE
  1

  9
$STYLESHEET
  1

  9
$XEDIT
290
     1
  9
$CEPSNTYPE
380
     0
  9
$PSTYLEMODE
290
     1
  9
$FINGERPRINTGUID
  2
{d1e07121-8312-4d73-9e57-d0da8a7a7b97}
  9
$VERSIONGUID
  2
{FAEB1C32-E019-11D5-929B-00C0DF256EC4}
  9
$EXTNAMES
290
     1
  9
$PSVPSCALE
 40
0.0
  9
$OLESTARTUP
290
     0
  0
ENDSEC
  0
SECTION
  2
CLASSES
  0
CLASS
  1
ACDBDICTIONARYWDFLT
  2
AcDbDictionaryWithDefault
  3
ObjectDBX Classes
 90
        0
280
     0
281
     0
  0
CLASS
  1
VISUALSTYLE
  2
AcDbVisualStyle
  3
ObjectDBX Classes
 90
     4095
280
     0
281
     0
  0
CLASS
  1
MATERIAL
  2
AcDbMaterial
  3
ObjectDBX Classes
 90
     1153
280
     0
281
     0
  0
CLASS
  1
SCALE
  2
AcDbScale
  3
ObjectDBX Classes
 90
     1153
280
     0
281
     0
  0
CLASS
  1
TABLESTYLE
  2
AcDbTableStyle
  3
ObjectDBX Classes
 90
     4095
280
     0
281
     0
  0
CLASS
  1
MLEADERSTYLE
  2
AcDbMLeaderStyle
  3
ACDB_MLEADERSTYLE_CLASS
 90
     4095
280
     0
281
     0
  0
CLASS
  1
SUN
  2
AcDbSun
  3
SCENEOE
 90
     1153
280
     0
281
     0
  0
CLASS
  1
ACDBPLACEHOLDER
  2
AcDbPlaceHolder
  3
ObjectDBX Classes
 90
        0
280
     0
281
     0
  0
CLASS
  1
LAYOUT
  2
AcDbLayout
  3
ObjectDBX Classes
 90
        0
280
     0
281
     0
  0
ENDSEC
  0
SECTION
  2
TABLES
  0
TABLE
  2
VPORT
  5
8
330
0
100
AcDbSymbolTable
 70
     1
  0
VPORT
  5
29
330
8
100
AcDbSymbolTableRecord
100
AcDbViewportTableRecord
  2
*Active
 70
     0
 10
0.0
 20
0.0
 11
1.0
 21
1.0
 12
139.7
 22
107.95
 13
0.0
 23
0.0
 14
10.0
 24
10.0
 15
10.0
 25
10.0
 16
0.0
 26
0.0
 36
1.0
 17
0.0
 27
0.0
 37
0.0
 40
215.9
 41
1.2941176471
 42
50.0
 43
0.0
 44
0.0
 50
0.0
 51
0.0
 71
     0
 72
  2000
 73
     1
 74
     3
 75
     0
 76
     0
 77
     0
 78
     0
281
     0
 65
     1
110
0.0
120
0.0
130
0.0
111
1.0
121
0.0
131
0.0
112
0.0
122
1.0
132
0.0
 79
     0
146
0.0
  0
ENDTAB
  0
TABLE
  2
LTYPE
  5
5
330
0
100
AcDbSymbolTable
 70
     6
  0
LTYPE
  5
14
330
5
100
AcDbSymbolTableRecord
100
AcDbLinetypeTableRecord
  2
ByBlock
 70
     0
  3

 72
    65
 73
     0
 40
0.0
  0
LTYPE
  5
15
330
5
100
AcDbSymbolTableRecord
100
AcDbLinetypeTableRecord
  2
ByLayer
 70
     0
  3

 72
    65
 73
     0
 40
0.0
  0
LTYPE
  5
16
330
5
100
AcDbSymbolTableRecord
100
AcDbLinetypeTableRecord
  2
Continuous
 70
     0
  3
Solid line
 72
    65
 73
     0
 40
0.0
  0
LTYPE
  5
6E
330
5
100
AcDbSymbolTableRecord
100
AcDbLinetypeTableRecord
  2
HIDDEN
 70
     0
  3
Hidden __ __ __ __ __ __ __ __ __ __ __ __ __ __
 72
    65
 73
     2
 40
1.905
 49
1.27
 74
     0
 49
-0.635
 74
     0
  0
LTYPE
  5
6F
330
5
100
AcDbSymbolTableRecord
100
AcDbLinetypeTableRecord
  2
PHANTOM
 70
     0
  3
Phantom ______  __  __  ______  __  __  ______
 72
    65
 73
     6
 40
12.7
 49
6.35
 74
     0
 49
-1.27
 74
     0
 49
1.27
 74
     0
 49
-1.27
 74
     0
 49
1.27
 74
     0
 49
-1.27
 74
     0
  0
LTYPE
  5
70
330
5
100
AcDbSymbolTableRecord
100
AcDbLinetypeTableRecord
  2
CENTER
 70
     0
  3
Center ____ _ ____ _ ____ _ ____ _ ____ _ ____
 72
    65
 73
     4
 40
10.16
 49
6.35
 74
     0
 49
-1.27
 74
     0
 49
1.27
 74
     0
 49
-1.27
 74
     0
  0
LTYPE
  5
71
330
5
100
AcDbSymbolTableRecord
100
AcDbLinetypeTableRecord
  2
CENTERX2
 70
     0
  3
Center (2x) ________  __  ________  __  _____
 72
    65
 73
     4
 40
20.32
 49
12.7
 74
     0
 49
-2.54
 74
     0
 49
2.54
 74
     0
 49
-2.54
 74
     0
  0
LTYPE
  5
72
330
5
100
AcDbSymbolTableRecord
100
AcDbLinetypeTableRecord
  2
DOT2
 70
     0
  3
Dot (.5x) ........................................
 72
    65
 73
     2
 40
0.635
 49
0.0
 74
     0
 49
-0.635
 74
     0
  0
ENDTAB
  0
TABLE
  2
LAYER
  5
2
330
0
100
AcDbSymbolTable
 70
    17
  0
LAYER
  5
10
330
2
100
AcDbSymbolTableRecord
100
AcDbLayerTableRecord
  2
0
 70
     0
 62
     7
  6
Continuous
370
    -3
390
F
  0
LAYER
  5
73
330
2
100
AcDbSymbolTableRecord
100
AcDbLayerTableRecord
  2
FORMAT
 70
     0
 62
     7
  6
Continuous
370
    -3
390
F
  0
LAYER
  5
74
330
2
100
AcDbSymbolTableRecord
100
AcDbLayerTableRecord
  2
YARDIMCI_GEOMETRI
 70
     0
 62
    -6
  6
Continuous
290
     0
370
    -3
390
F
  0
LAYER
  5
75
330
2
100
AcDbSymbolTableRecord
100
AcDbLayerTableRecord
  2
SAYFA_CERCEVESI
 70
     0
 62
     7
  6
Continuous
370
    25
390
F
  0
LAYER
  5
76
330
2
100
AcDbSymbolTableRecord
100
AcDbLayerTableRecord
  2
ANTET
 70
     0
 62
     7
  6
Continuous
370
    -3
390
F
  0
LAYER
  5
77
330
2
100
AcDbSymbolTableRecord
100
AcDbLayerTableRecord
  2
OLCU
 70
     0
 62
   150
  6
Continuous
370
    -3
390
F
  0
LAYER
  5
78
330
2
100
AcDbSymbolTableRecord
100
AcDbLayerTableRecord
  2
METIN
 70
     0
 62
    96
  6
Continuous
370
    -3
390
F
  0
LAYER
  5
79
330
2
100
AcDbSymbolTableRecord
100
AcDbLayerTableRecord
  2
BALON
 70
     0
 62
     5
  6
Continuous
370
    -3
390
F
  0
LAYER
  5
7A
330
2
100
AcDbSymbolTableRecord
100
AcDbLayerTableRecord
  2
VURGU
 70
     0
 62
     7
  6
Continuous
370
    -3
390
F
  0
LAYER
  5
7B
330
2
100
AcDbSymbolTableRecord
100
AcDbLayerTableRecord
  2
SILIK
 70
     0
 62
     7
  6
Continuous
370
    -3
390
F
  0
LAYER
  5
7C
330
2
100
AcDbSymbolTableRecord
100
AcDbLayerTableRecord
  2
MODEL
 70
     0
 62
     7
  6
Continuous
370
    -3
390
F
  0
LAYER
  5
7D
330
2
100
AcDbSymbolTableRecord
100
AcDbLayerTableRecord
  2
DETAYLANDıRMA
 70
     0
 62
   190
  6
Continuous
370
    -3
390
F
  0
LAYER
  5
7E
330
2
100
AcDbSymbolTableRecord
100
AcDbLayerTableRecord
  2
TOLERANS
 70
     0
 62
   230
  6
Continuous
370
    -3
390
F
  0
LAYER
  5
7F
330
2
100
AcDbSymbolTableRecord
100
AcDbLayerTableRecord
  2
MERKEZ_CIZGILERI
 70
     0
 62
    30
  6
Continuous
370
    -3
390
F
  0
LAYER
  5
80
330
2
100
AcDbSymbolTableRecord
100
AcDbLayerTableRecord
  2
KESIT-DETAY_CIZGILERI
 70
     0
 62
     7
  6
Continuous
370
    -3
390
F
  0
LAYER
  5
81
330
2
100
AcDbSymbolTableRecord
100
AcDbLayerTableRecord
  2
\U+041E\U+0421\U+0415\U+0412\U+042B\U+0415
 70
     0
 62
     7
  6
Continuous
370
    -3
390
F
  0
LAYER
  5
82
330
2
100
AcDbSymbolTableRecord
100
AcDbLayerTableRecord
  2
\U+0412\U+041E\U+0414\U+042F\U+041D\U+042B\U+0415_\U+0417\U+041D\U+0410\U+041A\U+0418
 70
     0
 62
    11
  6
Continuous
370
    -3
390
F
  0
ENDTAB
  0
TABLE
  2
STYLE
  5
3
330
0
100
AcDbSymbolTable
 70
     1
  0
STYLE
  5
11
330
3
100
AcDbSymbolTableRecord
100
AcDbTextStyleTableRecord
  2
Standard
 70
     0
 40
0.0
 41
1.0
 50
0.0
 71
     0
 42
3.5
  3
txt
  4

  0
ENDTAB
  0
TABLE
  2
VIEW
  5
6
330
0
100
AcDbSymbolTable
 70
     0
  0
ENDTAB
  0
TABLE
  2
UCS
  5
7
330
0
100
AcDbSymbolTable
 70
     0
  0
ENDTAB
  0
TABLE
  2
APPID
  5
9
330
0
100
AcDbSymbolTable
 70
     1
  0
APPID
  5
12
330
9
100
AcDbSymbolTableRecord
100
AcDbRegAppTableRecord
  2
ACAD
 70
     0
  0
ENDTAB
  0
TABLE
  2
DIMSTYLE
  5
A
330
0
100
AcDbSymbolTable
 70
     1
100
AcDbDimStyleTable
  0
DIMSTYLE
105
27
330
A
100
AcDbSymbolTableRecord
100
AcDbDimStyleTableRecord
  2
ISO-25
 70
     0
 41
2.5
 42
0.625
 43
3.75
 44
1.25
 73
     0
 74
     0
 77
     1
 78
     8
140
2.5
141
2.5
143
0.0393700787
147
0.625
171
     3
172
     1
178
     0
271
     2
272
     2
274
     3
278
    44
283
     0
284
     8
340
11
  0
ENDTAB
  0
TABLE
  2
BLOCK_RECORD
  5
1
330
0
100
AcDbSymbolTable
 70
     3
  0
BLOCK_RECORD
  5
1F
330
1
100
AcDbSymbolTableRecord
100
AcDbBlockTableRecord
  2
*Model_Space
340
22
  0
BLOCK_RECORD
  5
1B
330
1
100
AcDbSymbolTableRecord
100
AcDbBlockTableRecord
  2
*Paper_Space
340
1E
  0
BLOCK_RECORD
  5
23
330
1
100
AcDbSymbolTableRecord
100
AcDbBlockTableRecord
  2
*Paper_Space0
340
26
  0
BLOCK_RECORD
  5
88
330
1
100
AcDbSymbolTableRecord
100
AcDbBlockTableRecord
  2
SW_CENTERMARKSYMBOL_0
340
0
102
{BLKREFS
331
93
102
}
  0
BLOCK_RECORD
  5
B2
330
1
100
AcDbSymbolTableRecord
100
AcDbBlockTableRecord
  2
SW_CENTERMARKSYMBOL_1
340
0
102
{BLKREFS
331
BD
102
}
  0
ENDTAB
  0
ENDSEC
  0
SECTION
  2
BLOCKS
  0
BLOCK
  5
20
330
1F
100
AcDbEntity
  8
0
100
AcDbBlockBegin
  2
*Model_Space
 70
     0
 10
0.0
 20
0.0
 30
0.0
  3
*Model_Space
  1

  0
ENDBLK
  5
21
330
1F
100
AcDbEntity
  8
0
100
AcDbBlockEnd
  0
BLOCK
  5
1C
330
1B
100
AcDbEntity
 67
     1
  8
0
100
AcDbBlockBegin
  2
*Paper_Space
 70
     0
 10
0.0
 20
0.0
 30
0.0
  3
*Paper_Space
  1

  0
ENDBLK
  5
1D
330
1B
100
AcDbEntity
 67
     1
  8
0
100
AcDbBlockEnd
  0
BLOCK
  5
24
330
23
100
AcDbEntity
  8
0
100
AcDbBlockBegin
  2
*Paper_Space0
 70
     0
 10
0.0
 20
0.0
 30
0.0
  3
*Paper_Space0
  1

  0
ENDBLK
  5
25
330
23
100
AcDbEntity
  8
0
100
AcDbBlockEnd
  0
BLOCK
  5
89
330
88
100
AcDbEntity
  8
0
100
AcDbBlockBegin
  2
SW_CENTERMARKSYMBOL_0
 70
     0
 10
0.0
 20
0.0
 30
0.0
  3
SW_CENTERMARKSYMBOL_0
  1

  0
LINE
  5
8B
330
88
100
AcDbEntity
  8
FORMAT
 62
     0
100
AcDbLine
 10
0.0
 20
0.0
 30
0.0
 11
0.0
 21
2.5
 31
0.0
  0
LINE
  5
8C
330
88
100
AcDbEntity
  8
FORMAT
 62
     0
100
AcDbLine
 10
0.0
 20
0.0
 30
0.0
 11
-2.5
 21
0.0
 31
0.0
  0
LINE
  5
8D
330
88
100
AcDbEntity
  8
FORMAT
 62
     0
100
AcDbLine
 10
0.0
 20
0.0
 30
0.0
 11
0.0
 21
-2.5
 31
0.0
  0
LINE
  5
8E
330
88
100
AcDbEntity
  8
FORMAT
 62
     0
100
AcDbLine
 10
0.0
 20
0.0
 30
0.0
 11
2.5
 21
0.0
 31
0.0
  0
LINE
  5
8F
330
88
100
AcDbEntity
  8
FORMAT
 62
     0
100
AcDbLine
 10
0.0
 20
5.0
 30
0.0
 11
0.0
 21
102.5
 31
0.0
  0
LINE
  5
90
330
88
100
AcDbEntity
  8
FORMAT
 62
     0
100
AcDbLine
 10
-5.0
 20
0.0
 30
0.0
 11
-102.5
 21
0.0
 31
0.0
  0
LINE
  5
91
330
88
100
AcDbEntity
  8
FORMAT
 62
     0
100
AcDbLine
 10
0.0
 20
-5.0
 30
0.0
 11
0.0
 21
-102.5
 31
0.0
  0
LINE
  5
92
330
88
100
AcDbEntity
  8
FORMAT
 62
     0
100
AcDbLine
 10
5.0
 20
0.0
 30
0.0
 11
102.5
 21
0.0
 31
0.0
  0
ENDBLK
  5
8A
330
88
100
AcDbEntity
  8
0
100
AcDbBlockEnd
  0
BLOCK
  5
B3
330
B2
100
AcDbEntity
  8
0
100
AcDbBlockBegin
  2
SW_CENTERMARKSYMBOL_1
 70
     0
 10
0.0
 20
0.0
 30
0.0
  3
SW_CENTERMARKSYMBOL_1
  1

  0
LINE
  5
B5
330
B2
100
AcDbEntity
  8
FORMAT
 62
     0
100
AcDbLine
 10
0.0
 20
0.0
 30
0.0
 11
0.0
 21
2.5
 31
0.0
  0
LINE
  5
B6
330
B2
100
AcDbEntity
  8
FORMAT
 62
     0
100
AcDbLine
 10
0.0
 20
0.0
 30
0.0
 11
-2.5
 21
0.0
 31
0.0
  0
LINE
  5
B7
330
B2
100
AcDbEntity
  8
FORMAT
 62
     0
100
AcDbLine
 10
0.0
 20
0.0
 30
0.0
 11
0.0
 21
-2.5
 31
0.0
  0
LINE
  5
B8
330
B2
100
AcDbEntity
  8
FORMAT
 62
     0
100
AcDbLine
 10
0.0
 20
0.0
 30
0.0
 11
2.5
 21
0.0
 31
0.0
  0
LINE
  5
B9
330
B2
100
AcDbEntity
  8
FORMAT
 62
     0
100
AcDbLine
 10
0.0
 20
5.0
 30
0.0
 11
0.0
 21
57.5
 31
0.0
  0
LINE
  5
BA
330
B2
100
AcDbEntity
  8
FORMAT
 62
     0
100
AcDbLine
 10
-5.0
 20
0.0
 30
0.0
 11
-57.5
 21
0.0
 31
0.0
  0
LINE
  5
BB
330
B2
100
AcDbEntity
  8
FORMAT
 62
     0
100
AcDbLine
 10
0.0
 20
-5.0
 30
0.0
 11
0.0
 21
-57.5
 31
0.0
  0
LINE
  5
BC
330
B2
100
AcDbEntity
  8
FORMAT
 62
     0
100
AcDbLine
 10
5.0
 20
0.0
 30
0.0
 11
57.5
 21
0.0
 31
0.0
  0
ENDBLK
  5
B4
330
B2
100
AcDbEntity
  8
0
100
AcDbBlockEnd
  0
ENDSEC
  0
SECTION
  2
ENTITIES
  0
LINE
  5
83
330
1F
100
AcDbEntity
  8
0
  6
Continuous
 62
     7
370
    25
100
AcDbLine
 10
165.156364367
 20
54.3862139987
 30
0.0
 11
292.5770917734
 21
54.3862139987
 31
0.0
  0
LINE
  5
84
330
1F
100
AcDbEntity
  8
0
  6
Continuous
 62
     7
370
    25
100
AcDbLine
 10
292.5770917734
 20
164.3862139987
 30
0.0
 11
165.1069721065
 21
164.3862139987
 31
0.0
  0
CIRCLE
  5
85
330
1F
100
AcDbEntity
  8
0
  6
Continuous
 62
     7
370
    25
100
AcDbCircle
 10
81.5770917734
 20
109.3862139987
 30
0.0
 40
81.80000000000003
  0
CIRCLE
  5
86
330
1F
100
AcDbEntity
  8
0
  6
Continuous
 62
     7
370
    25
100
AcDbCircle
 10
81.5770917734
 20
109.3862139987
 30
0.0
 40
100.0
  0
LINE
  5
87
330
1F
100
AcDbEntity
  8
0
  6
Continuous
 62
     7
370
    25
100
AcDbLine
 10
292.5770917734
 20
164.3862139987
 30
0.0
 11
292.5770917734
 21
54.3862139987
 31
0.0
  0
INSERT
  5
93
330
1F
100
AcDbEntity
  8
FORMAT
100
AcDbBlockReference
  2
SW_CENTERMARKSYMBOL_0
 10
81.5770917734
 20
109.3862139987
 30
0.0
  0
LINE
  5
94
330
1F
100
AcDbEntity
  8
0
  6
Continuous
 62
     7
370
    25
100
AcDbLine
 10
-18.4229082266
 20
-74.3984590935
 30
0.0
 11
-18.4229082266
 21
-555.3984590935
 31
0.0
  0
LINE
  5
95
330
1F
100
AcDbEntity
  8
0
  6
Continuous
 62
     7
370
    25
100
AcDbLine
 10
181.5770917734
 20
-259.9159651511
 30
0.0
 11
181.5770917734
 21
-74.3984590935
 31
0.0
  0
LINE
  5
96
330
1F
100
AcDbEntity
  8
0
  6
Continuous
 62
     7
370
    25
100
AcDbLine
 10
181.5770917734
 20
-555.3984590935
 30
0.0
 11
181.5770917734
 21
-369.8984590935
 31
0.0
  0
LINE
  5
97
330
1F
100
AcDbEntity
  8
0
  6
Continuous
 62
     7
370
    25
100
AcDbLine
 10
181.5770917734
 20
-369.8984590935
 30
0.0
 11
292.5770917734
 21
-369.8984590935
 31
0.0
  0
LINE
  5
98
330
1F
100
AcDbEntity
  8
0
  6
Continuous
 62
     7
370
    25
100
AcDbLine
 10
292.5770917734
 20
-259.8984590935
 30
0.0
 11
181.5673599391
 21
-259.8984590935
 31
0.0
  0
LWPOLYLINE
  5
99
330
1F
100
AcDbEntity
  8
0
  6
Continuous
 62
     7
370
    25
100
AcDbPolyline
 90
       34
 70
   128
 43
0.0
 10
181.5673522666
 20
-259.9159651511
 10
181.4894289846
 20
-260.0580075363
 10
180.8341668768
 20
-261.2610937771
 10
180.2635875449
 20
-262.3243496216
 10
179.5508078522
 20
-263.6749386924
 10
177.7673533303
 20
-267.174603231
 10
175.5705564157
 20
-271.7733921898
 10
174.2802598914
 20
-274.6631049756
 10
172.9594763005
 20
-277.8074871211
 10
171.6060762133
 20
-281.279745196
 10
170.2877368337
 20
-284.9889531295
 10
168.9852909352
 20
-289.1075893885
 10
167.803997583
 20
-293.4490002311
 10
166.7559086663
 20
-298.155059405
 10
165.9312584771
 20
-303.0398993043
 10
165.4299564244
 20
-307.4010938006
 10
165.1499105236
 20
-311.8299034324
 10
165.1089339071
 20
-316.4621027633
 10
165.3219109323
 20
-321.0786480829
 10
166.2166590373
 20
-328.6409605623
 10
167.7267871379
 20
-336.0353938616
 10
169.7475696052
 20
-343.165633715
 10
172.0843651648
 20
-349.7777729734
 10
173.4492256403
 20
-353.1802376079
 10
174.8022006316
 20
-356.3221349518
 10
176.144164151
 20
-359.2599544154
 10
177.4040709882
 20
-361.8857972328
 10
178.5508733908
 20
-364.1826453864
 10
179.5510106808
 20
-366.1223674378
 10
180.4012389133
 20
-367.7306523524
 10
181.0359720196
 20
-368.9083550369
 10
181.4389135279
 20
-369.6468238556
 10
181.5770917734
 20
-369.8984590935
 10
181.5770917734
 20
-369.8984590935
  0
LINE
  5
9A
330
1F
100
AcDbEntity
  8
0
  6
Continuous
 62
     7
370
    25
100
AcDbLine
 10
181.5770917734
 20
-555.3984590935
 30
0.0
 11
-18.4229082266
 21
-555.3984590935
 31
0.0
  0
LINE
  5
9B
330
1F
100
AcDbEntity
  8
0
  6
Continuous
 62
     7
370
    25
100
AcDbLine
 10
181.5770917734
 20
-74.3984590935
 30
0.0
 11
-18.4229082266
 21
-74.3984590935
 31
0.0
  0
LINE
  5
9C
330
1F
100
AcDbEntity
  8
0
  6
Continuous
 62
     7
370
    25
100
AcDbLine
 10
292.5770917734
 20
-259.8984590935
 30
0.0
 11
292.5770917734
 21
-369.8984590935
 31
0.0
  0
LINE
  5
9D
330
1F
100
AcDbEntity
  8
0
  6
Continuous
 62
     7
370
    25
100
AcDbLine
 10
181.5770917734
 20
578.5982609035
 30
0.0
 11
181.5770917734
 21
764.0982609035
 31
0.0
  0
LINE
  5
9E
330
1F
100
AcDbEntity
  8
0
  6
Continuous
 62
     7
370
    25
100
AcDbLine
 10
181.5770917734
 20
283.0982609035
 30
0.0
 11
181.5770917734
 21
468.6160844238
 31
0.0
  0
LINE
  5
9F
330
1F
100
AcDbEntity
  8
0
  6
Continuous
 62
     7
370
    25
100
AcDbLine
 10
-18.4229082266
 20
764.0982609035
 30
0.0
 11
-18.4229082266
 21
283.0982609035
 31
0.0
  0
LINE
  5
A0
330
1F
100
AcDbEntity
  8
0
  6
Continuous
 62
     7
370
    25
100
AcDbLine
 10
181.5673056045
 20
468.5982609035
 30
0.0
 11
292.5770917734
 21
468.5982609035
 31
0.0
  0
LINE
  5
A1
330
1F
100
AcDbEntity
  8
0
  6
Continuous
 62
     7
370
    25
100
AcDbLine
 10
292.5770917734
 20
578.5982609035
 30
0.0
 11
181.5770917734
 21
578.5982609035
 31
0.0
  0
SPLINE
  5
A2
330
1F
100
AcDbEntity
  8
0
  6
Continuous
 62
     7
370
    25
100
AcDbSpline
210
0.0
220
0.0
230
1.0
 70
     8
 71
     3
 72
    41
 73
    37
 74
     0
 42
0.000000001
 43
0.00000001
 40
0.0
 40
0.0
 40
0.0
 40
0.0
 40
0.023820517023885
 40
0.0478234385738023
 40
0.072391371988831
 40
0.0971482089404912
 40
0.1448997095572717
 40
0.1938750302691049
 40
0.2193684122111013
 40
0.245013229243942
 40
0.2711197424021221
 40
0.2973824541554246
 40
0.3252584494909733
 40
0.3533371105294321
 40
0.3821008405219444
 40
0.4111285608497601
 40
0.4370990696919052
 40
0.463304245171853
 40
0.4903023257545844
 40
0.5175937167633705
 40
0.5620209803616935
 40
0.6076980045549709
 40
0.6532452505765839
 40
0.6997855677650767
 40
0.7260611731614707
 40
0.7524966450139771
 40
0.779433425451434
 40
0.8065465637182412
 40
0.834430805425612
 40
0.862532887325312
 40
0.8913712278083195
 40
0.9204879518261213
 40
0.9457417867418345
 40
0.9712043759145192
 40
0.9973483320050387
 40
0.9999999999999999
 40
0.9999999999999999
 40
0.9999999999999999
 40
0.9999999999999999
 10
181.5770917734438
 20
578.5982609034821
 30
0.0
 10
181.5600209042654
 20
578.5672549399534
 30
0.0
 10
181.5257484465041
 20
578.50500558614
 30
0.0
 10
181.2477969669945
 20
577.9981517615623
 30
0.0
 10
180.8030145592674
 20
577.1800912657999
 30
0.0
 10
179.9882188529788
 20
575.6616636481598
 30
0.0
 10
178.5968847474175
 20
573.0066249334234
 30
0.0
 10
176.8180281171335
 20
569.4185610560966
 30
0.0
 10
175.2168074401054
 20
565.9707460091624
 30
0.0
 10
173.930949763132
 20
563.0541906361009
 30
0.0
 10
172.6098676148247
 20
559.8622619803617
 30
0.0
 10
171.259455097402
 20
556.337185762565
 30
0.0
 10
169.9201730805856
 20
552.4840188724246
 30
0.0
 10
168.62939371293
 20
548.2741319239733
 30
0.0
 10
167.4581422347166
 20
543.7809291393211
 30
0.0
 10
166.4980986949813
 20
539.1998430692933
 30
0.0
 10
165.7771427779329
 20
534.6087793198386
 30
0.0
 10
165.2976359926515
 20
530.026894230622
 30
0.0
 10
165.0650186288169
 20
525.3010116661171
 30
0.0
 10
165.1131060361051
 20
519.4837319428686
 30
0.0
 10
165.6936815381731
 20
512.6225609327581
 30
0.0
 10
167.0340498799245
 20
505.0098770652407
 30
0.0
 10
168.9121406621031
 20
497.7680436138538
 30
0.0
 10
170.8083917612704
 20
492.0628914889793
 30
0.0
 10
172.4749003430045
 20
487.6730368633763
 30
0.0
 10
173.8244232762565
 20
484.3896078470157
 30
0.0
 10
175.1671523676227
 20
481.3325644622959
 30
0.0
 10
176.4791593871976
 20
478.5064354318075
 30
0.0
 10
177.7199986467463
 20
475.9546673586485
 30
0.0
 10
178.859129210289
 20
473.6997763556324
 30
0.0
 10
179.8508105233877
 20
471.7965062164276
 30
0.0
 10
180.6156727872096
 20
470.3631684546902
 30
0.0
 10
181.1591283477921
 20
469.3607152039748
 30
0.0
 10
181.4708138742423
 20
468.7913700257284
 30
0.0
 10
181.6052441235087
 20
468.5470262428938
 30
0.0
 10
181.5704974536352
 20
468.6102613670323
 30
0.0
 10
181.5672977788457
 20
468.616084423839
 30
0.0
  0
LINE
  5
A3
330
1F
100
AcDbEntity
  8
0
  6
Continuous
 62
     7
370
    25
100
AcDbLine
 10
-18.4229082266
 20
764.0982609035
 30
0.0
 11
181.5770917734
 21
764.0982609035
 31
0.0
  0
LINE
  5
A4
330
1F
100
AcDbEntity
  8
0
  6
Continuous
 62
     7
370
    25
100
AcDbLine
 10
-18.4229082266
 20
283.0982609035
 30
0.0
 11
181.5770917734
 21
283.0982609035
 31
0.0
  0
LINE
  5
A5
330
1F
100
AcDbEntity
  8
0
  6
Continuous
 62
     7
370
    25
100
AcDbLine
 10
292.5770917734
 20
578.5982609035
 30
0.0
 11
292.5770917734
 21
468.5982609035
 31
0.0
  0
LINE
  5
A6
330
1F
100
AcDbEntity
  8
0
  6
Continuous
 62
     7
370
    25
100
AcDbLine
 10
406.4326265722
 20
9.3862139987
 30
0.0
 11
887.4326265722
 21
9.3862139987
 31
0.0
  0
LINE
  5
A7
330
1F
100
AcDbEntity
  8
0
  6
Continuous
 62
     7
370
    25
100
AcDbLine
 10
887.4326265722
 20
209.3862139987
 30
0.0
 11
406.4326265722
 21
209.3862139987
 31
0.0
  0
LINE
  5
A8
330
1F
100
AcDbEntity
  8
0
  6
Continuous
 62
     7
370
    25
100
AcDbLine
 10
887.4326265722
 20
209.3862139987
 30
0.0
 11
887.4326265722
 21
9.3862139987
 31
0.0
  0
LINE
  5
A9
330
1F
100
AcDbEntity
  8
0
  6
Continuous
 62
     7
370
    25
100
AcDbLine
 10
406.4326265722
 20
209.3862139987
 30
0.0
 11
406.4326265722
 21
9.3862139987
 31
0.0
  0
LINE
  5
AA
330
1F
100
AcDbEntity
  8
0
  6
Continuous
 62
     7
370
    25
100
AcDbLine
 10
-145.5726965091
 20
209.3862139987
 30
0.0
 11
-626.5726965091
 21
209.3862139987
 31
0.0
  0
LINE
  5
AB
330
1F
100
AcDbEntity
  8
0
  6
Continuous
 62
     7
370
    25
100
AcDbLine
 10
-626.5726965091
 20
9.3862139987
 30
0.0
 11
-145.5726965091
 21
9.3862139987
 31
0.0
  0
CIRCLE
  5
AC
330
1F
100
AcDbEntity
  8
0
  6
Continuous
 62
     7
370
    25
100
AcDbCircle
 10
-386.0726965091
 20
109.3862139987
 30
0.0
 40
45.00000000000006
  0
CIRCLE
  5
AD
330
1F
100
AcDbEntity
  8
0
  6
Continuous
 62
     7
370
    25
100
AcDbCircle
 10
-386.0726965091
 20
109.3862139987
 30
0.0
 40
55.0
  0
LINE
  5
AE
330
1F
100
AcDbEntity
  8
0
  6
Continuous
 62
     7
370
    25
100
AcDbLine
 10
-626.5726965091
 20
109.3862139987
 30
0.0
 11
-626.5726965091
 21
209.3862139987
 31
0.0
  0
LINE
  5
AF
330
1F
100
AcDbEntity
  8
0
  6
Continuous
 62
     7
370
    25
100
AcDbLine
 10
-626.5726965091
 20
9.3862139987
 30
0.0
 11
-626.5726965091
 21
109.3862139987
 31
0.0
  0
LINE
  5
B0
330
1F
100
AcDbEntity
  8
0
  6
Continuous
 62
     7
370
    25
100
AcDbLine
 10
-145.5726965091
 20
109.3862139987
 30
0.0
 11
-145.5726965091
 21
209.3862139987
 31
0.0
  0
LINE
  5
B1
330
1F
100
AcDbEntity
  8
0
  6
Continuous
 62
     7
370
    25
100
AcDbLine
 10
-145.5726965091
 20
9.3862139987
 30
0.0
 11
-145.5726965091
 21
109.3862139987
 31
0.0
  0
INSERT
  5
BD
330
1F
100
AcDbEntity
  8
FORMAT
100
AcDbBlockReference
  2
SW_CENTERMARKSYMBOL_1
 10
-386.0726965091
 20
109.3862139987
 30
0.0
  0
LINE
  5
BE
330
1F
100
AcDbEntity
  8
0
  6
Continuous
 62
     7
370
    25
100
AcDbLine
 10
863.8985694309
 20
-360.1819074777
 30
0.0
 11
798.8560493889
 21
-322.6336598943
 31
0.0
  0
LINE
  5
BF
330
1F
100
AcDbEntity
  8
0
  6
Continuous
 62
     7
370
    25
100
AcDbLine
 10
688.8471092523
 20
-259.1268505339
 30
0.0
 11
523.7802076802
 21
-163.8357565843
 31
0.0
  0
LINE
  5
C0
330
1F
100
AcDbEntity
  8
0
  6
Continuous
 62
     7
370
    25
100
AcDbLine
 10
423.7883344166
 20
-337.0455290604
 30
0.0
 11
763.9066961673
 21
-533.3916799538
 31
0.0
  0
LINE
  5
C1
330
1F
100
AcDbEntity
  8
0
  6
Continuous
 62
     7
370
    25
100
AcDbLine
 10
736.4841231236
 20
-358.6402065064
 30
0.0
 11
820.5407479016
 21
-310.1153499027
 31
0.0
  0
LINE
  5
C2
330
1F
100
AcDbEntity
  8
0
  6
Continuous
 62
     7
370
    25
100
AcDbLine
 10
765.5452176066
 20
-214.8499750408
 30
0.0
 11
681.487255494
 21
-263.3756036714
 31
0.0
  0
SPLINE
  5
C3
330
1F
100
AcDbEntity
  8
0
  6
Continuous
 62
     7
370
    25
100
AcDbSpline
210
0.0
220
0.0
230
1.0
 70
     8
 71
     3
 72
    31
 73
    27
 74
     0
 42
0.000000001
 43
0.00000001
 40
0.0
 40
0.0
 40
0.0
 40
0.0
 40
0.0317465265856294
 40
0.0641118517302905
 40
0.096478479758315
 40
0.1294728762138538
 40
0.1931131524645445
 40
0.2583844612047762
 40
0.2923604797256033
 40
0.3265383216633053
 40
0.3613314839277185
 40
0.3963328181158445
 40
0.4334842378828259
 40
0.47090575808965
 40
0.5092402962524254
 40
0.5479266645702581
 40
0.5825385686096531
 40
0.617463221975534
 40
0.653444610713706
 40
0.6898169056286519
 40
0.7490268423204836
 40
0.8099023834118172
 40
0.8706049641021296
 40
0.9326310492390151
 40
0.9676495672851898
 40
1.0
 40
1.0
 40
1.0
 40
1.0
 10
675.6632570771195
 20
-285.3420896027961
 30
0.0
 10
675.67310981734
 20
-286.5064758189941
 30
0.0
 10
675.693007345923
 20
-288.8579442937681
 30
0.0
 10
675.8556560173661
 20
-292.6324382581832
 30
0.0
 10
676.1201191073543
 20
-296.5917984177278
 30
0.0
 10
676.6162566894252
 20
-301.9810441608509
 30
0.0
 10
677.5098110347768
 20
-308.9603494977824
 30
0.0
 10
678.7891195813997
 20
-316.057934596219
 30
0.0
 10
680.0948581747896
 20
-321.7981292155708
 30
0.0
 10
681.2479357409494
 20
-326.1642797331684
 30
0.0
 10
682.5708239473234
 20
-330.4801133951996
 30
0.0
 10
684.1085434087576
 20
-334.7922979433887
 30
0.0
 10
685.8861284480245
 20
-339.0436357431367
 30
0.0
 10
687.9502492075421
 20
-343.2074717460524
 30
0.0
 10
690.2992235291536
 20
-347.1609440423164
 30
0.0
 10
692.8596871612507
 20
-350.704171261325
 30
0.0
 10
695.5962669775168
 20
-353.8017827425707
 30
0.0
 10
698.4970852927645
 20
-356.4711267231812
 30
0.0
 10
701.6743082352506
 20
-358.7836701121176
 30
0.0
 10
705.8217277600842
 20
-361.079032480964
 30
0.0
 10
711.0839694408517
 20
-362.9221726971425
 30
0.0
 10
717.4141852048042
 20
-363.7481781392586
 30
0.0
 10
723.8650034918186
 20
-363.3325204696625
 30
0.0
 10
729.2333184193918
 20
-361.96589319216
 30
0.0
 10
733.4373165527621
 20
-360.2976910209675
 30
0.0
 10
735.4912431419444
 20
-359.1698463194319
 30
0.0
 10
736.477534499817
 20
-358.628257594691
 30
0.0
  0
SPLINE
  5
C4
330
1F
100
AcDbEntity
  8
0
  6
Continuous
 62
     7
370
    25
100
AcDbSpline
210
0.0
220
0.0
230
1.0
 70
     8
 71
     3
 72
    16
 73
    12
 74
     0
 42
0.000000001
 43
0.00000001
 40
0.0
 40
0.0
 40
0.0
 40
0.0
 40
0.0878917849283175
 40
0.1984199244957161
 40
0.3097328476194682
 40
0.420456431320937
 40
0.532075383837469
 40
0.6467262289106616
 40
0.7625208405861919
 40
0.880572088095744
 40
1.0
 40
1.0
 40
1.0
 40
1.0
 10
681.5022222053578
 20
-263.4006564069037
 30
0.0
 10
681.1504136426616
 20
-263.6181108295368
 30
0.0
 10
680.3561889207028
 20
-264.1090246294481
 30
0.0
 10
679.3216623136967
 20
-265.2977360469748
 30
0.0
 10
678.3532862448861
 20
-266.9063555218251
 30
0.0
 10
677.5415126056233
 20
-268.9092177261064
 30
0.0
 10
676.8704861558824
 20
-271.3152262177161
 30
0.0
 10
676.3395659792383
 20
-274.1519026279996
 30
0.0
 10
675.9547706666652
 20
-277.446135879733
 30
0.0
 10
675.7093319534821
 20
-281.1508922666147
 30
0.0
 10
675.6786746093497
 20
-283.9396350523993
 30
0.0
 10
675.6632570771195
 20
-285.3420896027961
 30
0.0
  0
LWPOLYLINE
  5
C5
330
1F
100
AcDbEntity
  8
0
  6
Continuous
 62
     7
370
    25
100
AcDbPolyline
 90
      107
 70
   128
 43
0.0
 10
544.494949167
 20
-209.6202372312
 10
544.3707622491
 20
-204.8546897733
 10
543.9986377065
 20
-200.2492646379
 10
543.3798826402
 20
-195.820138549
 10
542.5166704499
 20
-191.5828689735
 10
541.4120331999
 20
-187.5523394752
 10
540.0698509689
 20
-183.742707436
 10
538.4948382209
 20
-180.1673543275
 10
536.6925272457
 20
-176.8388387077
 10
534.6692487262
 20
-173.7688521093
 10
532.432109502
 20
-170.968177972
 10
529.9889676063
 20
-168.4466537661
 10
527.3484046641
 20
-166.2131364371
 10
524.519695749
 20
-164.2754712961
 10
521.5127768043
 20
-162.6404644628
 10
518.3382097423
 20
-161.3138589581
 10
515.0071453458
 20
-160.3003145323
 10
511.5312840998
 20
-159.6033912972
 10
507.9228350938
 20
-159.225537221
 10
504.1944731366
 20
-159.1680795299
 10
500.3592942354
 20
-159.4312200463
 10
496.430769596
 20
-160.0140344794
 10
492.4226983045
 20
-160.9144756723
 10
488.3491588575
 20
-162.1293807924
 10
484.2244597109
 20
-163.6544824413
 10
480.0630890208
 20
-165.4844236437
 10
475.8796637536
 20
-167.6127766644
 10
471.6888783431
 20
-170.0320655859
 10
467.5054530759
 20
-172.7337925675
 10
463.3440823859
 20
-175.7084676947
 10
459.2193832392
 20
-178.9456423127
 10
455.1458437922
 20
-182.4339457274
 10
451.1377725008
 20
-186.161125146
 10
447.2092478614
 20
-190.1140887148
 10
443.3740689602
 20
-194.278951505
 10
439.6457070029
 20
-198.6410842844
 10
436.0372579969
 20
-203.1851649023
 10
432.5613967509
 20
-207.8952321098
 10
429.2303323544
 20
-212.7547416242
 10
426.0557652924
 20
-217.746624241
 10
423.0488463477
 20
-222.8533457904
 10
420.2201374326
 20
-228.0569687268
 10
417.5795744904
 20
-233.3392151349
 10
415.1364325947
 20
-238.6815309314
 10
412.8992933706
 20
-244.0651510373
 10
410.8760148511
 20
-249.4711652906
 10
409.0737038758
 20
-254.8805848691
 10
407.4986911278
 20
-260.2744089892
 10
406.1565088968
 20
-265.633691647
 10
405.0518716469
 20
-270.9396081668
 10
404.1886594566
 20
-276.1735213231
 10
403.5699043902
 20
-281.3170468051
 10
403.1977798476
 20
-286.3521177921
 10
403.0735929297
 20
-291.2610484135
 10
403.1977798476
 20
-296.0265958715
 10
403.5699043902
 20
-300.6320210068
 10
404.1886594566
 20
-305.0611470957
 10
405.0518716469
 20
-309.2984166713
 10
406.1565088968
 20
-313.3289461696
 10
407.4986911278
 20
-317.1385782087
 10
409.0737038758
 20
-320.7139313173
 10
410.8760148511
 20
-324.042446937
 10
412.8992933706
 20
-327.1124335355
 10
415.1364325947
 20
-329.9131076727
 10
417.5795744904
 20
-332.4346318787
 10
420.2201374326
 20
-334.6681492077
 10
423.0488463477
 20
-336.6058143486
 10
426.0557652924
 20
-338.240821182
 10
429.2303323544
 20
-339.5674266867
 10
432.5613967509
 20
-340.5809711125
 10
436.0372579969
 20
-341.2778943476
 10
439.6457070029
 20
-341.6557484238
 10
443.3740689602
 20
-341.7132061148
 10
447.2092478614
 20
-341.4500655985
 10
451.1377725008
 20
-340.8672511654
 10
455.1458437922
 20
-339.9668099725
 10
459.2193832392
 20
-338.7519048523
 10
463.3440823859
 20
-337.2268032035
 10
467.5054530759
 20
-335.3968620011
 10
471.6888783431
 20
-333.2685089803
 10
475.8796637536
 20
-330.8492200589
 10
480.0630890208
 20
-328.1474930772
 10
484.2244597109
 20
-325.17281795
 10
488.3491588575
 20
-321.9356433321
 10
492.4226983045
 20
-318.4473399174
 10
496.430769596
 20
-314.7201604988
 10
500.3592942354
 20
-310.76719693
 10
504.1944731366
 20
-306.6023341397
 10
507.9228350939
 20
-302.2402013604
 10
511.5312840998
 20
-297.6961207425
 10
515.0071453458
 20
-292.9860535349
 10
518.3382097423
 20
-288.1265440206
 10
521.5127768043
 20
-283.1346614038
 10
524.519695749
 20
-278.0279398543
 10
527.3484046641
 20
-272.8243169179
 10
529.9889676063
 20
-267.5420705099
 10
532.432109502
 20
-262.1997547134
 10
534.6692487262
 20
-256.8161346075
 10
536.6925272457
 20
-251.4101203542
 10
538.4948382209
 20
-246.0007007757
 10
540.0698509689
 20
-240.6068766555
 10
541.4120331999
 20
-235.2475939977
 10
542.5166704499
 20
-229.941677478
 10
543.3798826401
 20
-224.7077643217
 10
543.9986377065
 20
-219.5642388396
 10
544.3707622491
 20
-214.5291678526
 10
544.494949167
 20
-209.6202372312
  0
LWPOLYLINE
  5
C6
330
1F
100
AcDbEntity
  8
0
  6
Continuous
 62
     7
370
    25
100
AcDbPolyline
 90
       15
 70
   128
 43
0.0
 10
884.6133109177
 20
-405.9663881246
 10
884.4891239998
 20
-401.2008406666
 10
884.1169994572
 20
-396.5954155313
 10
883.4982443909
 20
-392.1662894424
 10
882.6350322006
 20
-387.9290198668
 10
881.5303949506
 20
-383.8984903685
 10
880.1882127196
 20
-380.0888583294
 10
878.6131999717
 20
-376.5135052208
 10
876.8108889964
 20
-373.1849896011
 10
874.7876104769
 20
-370.1150030026
 10
872.5504712527
 20
-367.3143288654
 10
870.1073293571
 20
-364.7928046594
 10
867.4667664148
 20
-362.5592873304
 10
864.6380574998
 20
-360.6216221895
 10
863.8985694309
 20
-360.1819074777
  0
LWPOLYLINE
  5
C7
330
1F
100
AcDbEntity
  8
0
  6
Continuous
 62
     7
370
    25
100
AcDbPolyline
 90
       41
 70
   128
 43
0.0
 10
763.9066961673
 20
-533.3916799538
 10
766.1741270432
 20
-534.5869720753
 10
769.3486941051
 20
-535.91357758
 10
772.6797585016
 20
-536.9271220058
 10
776.1556197476
 20
-537.624045241
 10
779.7640687536
 20
-538.0018993172
 10
783.4924307109
 20
-538.0593570082
 10
787.3276096121
 20
-537.7962164918
 10
791.2561342515
 20
-537.2134020587
 10
795.264205543
 20
-536.3129608658
 10
799.33774499
 20
-535.0980557457
 10
803.4624441366
 20
-533.5729540968
 10
807.6238148267
 20
-531.7430128944
 10
811.8072400938
 20
-529.6146598737
 10
815.9980255043
 20
-527.1953709522
 10
820.1814507715
 20
-524.4936439706
 10
824.3428214616
 20
-521.5189688434
 10
828.4675206082
 20
-518.2817942255
 10
832.5410600552
 20
-514.7934908107
 10
836.5491313467
 20
-511.0663113921
 10
840.4776559861
 20
-507.1133478233
 10
844.3128348873
 20
-502.9484850331
 10
848.0411968446
 20
-498.5863522537
 10
851.6496458506
 20
-494.0422716359
 10
855.1255070965
 20
-489.3322044283
 10
858.4565714931
 20
-484.4726949139
 10
861.631138555
 20
-479.4808122971
 10
864.6380574998
 20
-474.3740907477
 10
867.4667664148
 20
-469.1704678113
 10
870.1073293571
 20
-463.8882214032
 10
872.5504712527
 20
-458.5459056067
 10
874.7876104769
 20
-453.1622855008
 10
876.8108889964
 20
-447.7562712475
 10
878.6131999717
 20
-442.346851669
 10
880.1882127196
 20
-436.9530275489
 10
881.5303949506
 20
-431.5937448911
 10
882.6350322006
 20
-426.2878283714
 10
883.4982443909
 20
-421.053915215
 10
884.1169994572
 20
-415.910389733
 10
884.4891239998
 20
-410.875318746
 10
884.6133109177
 20
-405.9663881246
  0
LWPOLYLINE
  5
C8
330
1F
100
AcDbEntity
  8
0
  6
Continuous
 62
     7
370
    25
100
AcDbPolyline
 90
       97
 70
   128
 43
0.0
 10
531.6256057494
 20
-217.0495510488
 10
531.5017630118
 20
-212.7525702165
 10
531.1307651127
 20
-208.6169754971
 10
530.514200722
 20
-204.660476142
 10
529.6547100631
 20
-200.900014489
 10
528.555973607
 20
-197.3516934121
 10
527.2226963118
 20
-194.0307073669
 10
525.6605874756
 20
-190.9512773256
 10
523.8763362883
 20
-188.1265898803
 10
521.8775831873
 20
-185.5687407763
 10
519.6728871403
 20
-183.2886831162
 10
517.2716889943
 20
-181.2961804569
 10
514.6842710484
 20
-179.5997650007
 10
511.9217130233
 20
-178.2067010591
 10
508.9958446167
 20
-177.1229539456
 10
505.9191948464
 20
-176.3531644318
 10
502.7049383989
 20
-175.9006288746
 10
499.3668392138
 20
-175.7672851008
 10
495.9191915443
 20
-175.9537041087
 10
492.3767587471
 20
-176.4590876237
 10
488.7547100631
 20
-177.2812715159
 10
485.068555661
 20
-178.4167350677
 10
481.3340802198
 20
-179.8606160497
 10
477.5672753367
 20
-181.6067315421
 10
473.7842710484
 20
-183.6476044101
 10
470.0012667601
 20
-185.9744953229
 10
466.2344618769
 20
-188.5774401763
 10
462.4999864357
 20
-191.4452927608
 10
458.8138320336
 20
-194.5657724914
 10
455.1917833496
 20
-197.9255169949
 10
451.6493505524
 20
-201.5101393294
 10
448.2017028829
 20
-205.3042895918
 10
444.8636036978
 20
-209.2917206482
 10
441.6493472503
 20
-213.4553577066
 10
438.57269748
 20
-217.777371434
 10
435.6468290734
 20
-222.2392543041
 10
432.8842710484
 20
-226.8218998493
 10
430.2968531024
 20
-231.505684478
 10
427.8956549564
 20
-236.2705515052
 10
425.6909589094
 20
-241.0960970389
 10
423.6922058084
 20
-245.9616573522
 10
421.9079546211
 20
-250.846397369
 10
420.3458457849
 20
-255.7293998825
 10
419.0125684897
 20
-260.5897551263
 10
417.9138320336
 20
-265.4066503131
 10
417.0543413747
 20
-270.1594587582
 10
416.437776984
 20
-274.8278282062
 10
416.0667790849
 20
-279.3917679823
 10
415.9429363473
 20
-283.8317345959
 10
416.0667790849
 20
-288.1287154282
 10
416.437776984
 20
-292.2643101477
 10
417.0543413747
 20
-296.2208095027
 10
417.9138320336
 20
-299.9812711558
 10
419.0125684897
 20
-303.5295922327
 10
420.3458457849
 20
-306.8505782779
 10
421.9079546211
 20
-309.9300083192
 10
423.6922058084
 20
-312.7546957645
 10
425.6909589094
 20
-315.3125448685
 10
427.8956549564
 20
-317.5926025286
 10
430.2968531024
 20
-319.5851051879
 10
432.8842710484
 20
-321.281520644
 10
435.6468290734
 20
-322.6745845857
 10
438.57269748
 20
-323.7583316992
 10
441.6493472503
 20
-324.5281212129
 10
444.8636036978
 20
-324.9806567701
 10
448.2017028829
 20
-325.114000544
 10
451.6493505524
 20
-324.927581536
 10
455.1917833496
 20
-324.422198021
 10
458.8138320336
 20
-323.6000141289
 10
462.4999864357
 20
-322.4645505771
 10
466.2344618769
 20
-321.020669595
 10
470.0012667601
 20
-319.2745541027
 10
473.7842710484
 20
-317.2336812346
 10
477.5672753367
 20
-314.9067903219
 10
481.3340802198
 20
-312.3038454685
 10
485.068555661
 20
-309.4359928839
 10
488.7547100631
 20
-306.3155131533
 10
492.3767587471
 20
-302.9557686499
 10
495.9191915443
 20
-299.3711463154
 10
499.3668392138
 20
-295.576996053
 10
502.7049383989
 20
-291.5895649966
 10
505.9191948464
 20
-287.4259279381
 10
508.9958446167
 20
-283.1039142107
 10
511.9217130233
 20
-278.6420313407
 10
514.6842710484
 20
-274.0593857954
 10
517.2716889943
 20
-269.3756011668
 10
519.6728871403
 20
-264.6107341395
 10
521.8775831873
 20
-259.7851886058
 10
523.8763362883
 20
-254.9196282925
 10
525.6605874756
 20
-250.0348882758
 10
527.2226963118
 20
-245.1518857623
 10
528.555973607
 20
-240.2915305185
 10
529.6547100631
 20
-235.4746353317
 10
530.514200722
 20
-230.7218268866
 10
531.1307651127
 20
-226.0534574386
 10
531.5017630118
 20
-221.4895176624
 10
531.6256057494
 20
-217.0495510488
  0
LWPOLYLINE
  5
C9
330
1F
100
AcDbEntity
  8
0
  6
Continuous
 62
     7
370
    25
100
AcDbPolyline
 90
       72
 70
   128
 43
0.0
 10
824.8627879075
 20
-280.8518449878
 10
824.7382713484
 20
-277.5324948019
 10
824.365696182
 20
-274.0953592728
 10
823.7479783141
 20
-270.5673386461
 10
822.8899522245
 20
-266.9760444668
 10
821.7983331309
 20
-263.349583481
 10
820.4816644326
 20
-259.7163376628
 10
818.9502508474
 20
-256.1047420871
 10
817.2160777631
 20
-252.5430623858
 10
815.2927174352
 20
-249.0591735318
 10
813.1952227661
 20
-245.680341679
 10
810.9400094955
 20
-242.4330107679
 10
808.5447277249
 20
-239.3425955656
 10
806.028123782
 20
-236.4332827614
 10
803.4098935045
 20
-233.7278416724
 10
800.7105280945
 20
-231.2474460434
 10
797.9511537462
 20
-229.0115083333
 10
795.153366305
 20
-227.0375277861
 10
792.3390622513
 20
-225.3409534762
 10
789.5302673299
 20
-223.9350633977
 10
786.7489641694
 20
-222.8308605468
 10
784.016920238
 20
-222.0369868078
 10
781.3555174839
 20
-221.5596553192
 10
778.7855849919
 20
-221.4026018469
 10
776.3272359683
 20
-221.5670555475
 10
773.9997103274
 20
-222.0517293477
 10
771.821224113
 20
-222.8528300179
 10
769.8088269335
 20
-223.9640878592
 10
767.9782685253
 20
-225.3768057722
 10
766.34387549
 20
-227.0799273238
 10
764.918439169
 20
-229.0601232788
 10
763.7131155342
 20
-231.3018959189
 10
762.7373378774
 20
-233.7877003338
 10
761.9987429816
 20
-236.4980817334
 10
761.5031113533
 20
-239.4118277086
 10
761.2543219821
 20
-242.5061342463
 10
761.2543219821
 20
-245.7567842026
 10
761.5031113533
 20
-249.1383368341
 10
761.9987429816
 20
-252.6243269066
 10
762.7373378774
 20
-256.1874718214
 10
763.7131155342
 20
-259.7998851383
 10
764.918439169
 20
-263.4332948254
 10
766.34387549
 20
-267.0592645253
 10
767.9782685253
 20
-270.649416109
 10
769.8088269335
 20
-274.1756517725
 10
771.821224113
 20
-277.6103739409
 10
773.9997103274
 20
-280.9267012561
 10
776.3272359683
 20
-284.0986789605
 10
778.7855849919
 20
-287.1014820277
 10
781.3555174839
 20
-289.9116094525
 10
784.016920238
 20
-292.5070681777
 10
786.7489641694
 20
-294.8675452195
 10
789.5302673299
 20
-296.9745666449
 10
792.3390622513
 20
-298.8116421542
 10
795.153366305
 20
-300.3643941409
 10
797.9511537462
 20
-301.6206702153
 10
800.7105280945
 20
-302.5706383139
 10
803.4098935045
 20
-303.2068636482
 10
806.028123782
 20
-303.5243668923
 10
808.5447277249
 20
-303.520663153
 10
810.9400094955
 20
-303.195781417
 10
813.1952227661
 20
-302.5522643243
 10
815.2927174352
 20
-301.5951482688
 10
817.2160777631
 20
-300.3319239813
 10
818.9502508474
 20
-298.7724779045
 10
820.4816644326
 20
-296.9290148184
 10
821.7983331309
 20
-294.8159623211
 10
822.8899522245
 20
-292.4498579133
 10
823.7479783141
 20
-289.8492195702
 10
824.365696182
 20
-287.0344008129
 10
824.7382713484
 20
-284.0274314146
 10
824.8627879075
 20
-280.8518449878
  0
LWPOLYLINE
  5
CA
330
1F
100
AcDbEntity
  8
0
  6
Continuous
 62
     7
370
    25
100
AcDbPolyline
 90
       79
 70
   128
 43
0.0
 10
831.9338557193
 20
-284.9338855469
 10
831.8077446019
 20
-281.2473500942
 10
831.4302291287
 20
-277.4391184417
 10
830.8037576323
 20
-273.533888433
 10
829.9323930208
 20
-269.5569869832
 10
828.8217864281
 20
-265.5342058243
 10
827.4791405641
 20
-261.4916342358
 10
825.9131630025
 20
-257.4554898457
 10
824.1340097086
 20
-253.4519485991
 10
822.1532191743
 20
-249.5069749974
 10
819.9836375864
 20
-245.6461537081
 10
817.6393355138
 20
-241.8945236389
 10
815.1355166553
 20
-238.2764155503
 10
812.4884192367
 20
-234.8152942617
 10
809.7152107008
 20
-231.5336064728
 10
806.8338763689
 20
-228.4526351882
 10
803.8631028
 20
-225.5923616889
 10
800.8221566005
 20
-222.9713359462
 10
797.7307594736
 20
-220.6065563177
 10
794.6089603157
 20
-218.5133593068
 10
791.4770051925
 20
-216.7053200993
 10
788.3552060346
 20
-215.1941645234
 10
785.2638089077
 20
-213.9896930027
 10
782.2228627082
 20
-213.0997169973
 10
779.2520891393
 20
-212.5300083432
 10
776.3707548074
 20
-212.2842618194
 10
773.5975462715
 20
-212.3640711866
 10
770.9504488529
 20
-212.7689188504
 10
768.4466299943
 20
-213.4961792183
 10
766.1023279218
 20
-214.5411357277
 10
763.9327463338
 20
-215.8970114348
 10
761.9519557996
 20
-217.5550129652
 10
760.1728025057
 20
-219.5043875428
 10
758.6068249441
 20
-221.7324927255
 10
757.2641790801
 20
-224.224878396
 10
756.1535724874
 20
-226.9653804771
 10
755.2822078759
 20
-229.936225761
 10
754.6557363795
 20
-233.118147176
 10
754.2782209062
 20
-236.4905087408
 10
754.1521097888
 20
-240.0314393966
 10
754.2782209062
 20
-243.7179748493
 10
754.6557363795
 20
-247.5262065018
 10
755.2822078759
 20
-251.4314365106
 10
756.1535724874
 20
-255.4083379603
 10
757.2641790801
 20
-259.4311191192
 10
758.6068249441
 20
-263.4736907078
 10
760.1728025057
 20
-267.5098350979
 10
761.9519557996
 20
-271.5133763444
 10
763.9327463338
 20
-275.4583499461
 10
766.1023279218
 20
-279.3191712354
 10
768.4466299943
 20
-283.0708013046
 10
770.9504488529
 20
-286.6889093932
 10
773.5975462715
 20
-290.1500306818
 10
776.3707548074
 20
-293.4317184707
 10
779.2520891393
 20
-296.5126897553
 10
782.2228627082
 20
-299.3729632546
 10
785.2638089077
 20
-301.9939889974
 10
788.3552060346
 20
-304.3587686258
 10
791.4770051925
 20
-306.4519656367
 10
794.6089603157
 20
-308.2600048442
 10
797.7307594736
 20
-309.7711604201
 10
800.8221566005
 20
-310.9756319408
 10
803.8631028
 20
-311.8656079462
 10
806.8338763689
 20
-312.4353166004
 10
809.7152107008
 20
-312.6810631241
 10
812.4884192367
 20
-312.6012537569
 10
815.1355166553
 20
-312.1964060931
 10
817.6393355138
 20
-311.4691457253
 10
819.9836375864
 20
-310.4241892158
 10
822.1532191743
 20
-309.0683135088
 10
824.1340097086
 20
-307.4103119783
 10
825.9131630025
 20
-305.4609374007
 10
827.4791405641
 20
-303.2328322181
 10
828.8217864281
 20
-300.7404465475
 10
829.9323930208
 20
-297.9999444664
 10
830.8037576323
 20
-295.0290991825
 10
831.4302291287
 20
-291.8471777675
 10
831.8077446019
 20
-288.4748162027
 10
831.9338557193
 20
-284.9338855469
  0
ENDSEC
  0
SECTION
  2
OBJECTS
  0
DICTIONARY
  5
C
330
0
100
AcDbDictionary
281
     1
  3
ACAD_GROUP
350
D
  3
ACAD_LAYOUT
350
1A
  3
ACAD_MLINESTYLE
350
17
  3
ACAD_PLOTSETTINGS
350
19
  3
ACAD_PLOTSTYLENAME
350
E
  3
ACAD_SCALELIST
350
47
  0
DICTIONARY
  5
D
102
{ACAD_REACTORS
330
C
102
}
330
C
100
AcDbDictionary
281
     1
  0
DICTIONARY
  5
1A
102
{ACAD_REACTORS
330
C
102
}
330
C
100
AcDbDictionary
281
     1
  3
Layout1
350
1E
  3
Layout2
350
26
  3
Model
350
22
  0
DICTIONARY
  5
17
102
{ACAD_REACTORS
330
C
102
}
330
C
100
AcDbDictionary
281
     1
  3
Standard
350
18
  0
DICTIONARY
  5
19
102
{ACAD_REACTORS
330
C
102
}
330
C
100
AcDbDictionary
281
     1
  0
ACDBDICTIONARYWDFLT
  5
E
102
{ACAD_REACTORS
330
C
102
}
330
C
100
AcDbDictionary
281
     1
  3
Normal
350
F
100
AcDbDictionaryWithDefault
340
F
  0
DICTIONARY
  5
47
102
{ACAD_REACTORS
330
C
102
}
330
C
100
AcDbDictionary
281
     1
  3
A0
350
48
  3
A1
350
49
  3
A2
350
4A
  3
A3
350
4B
  3
A4
350
4C
  3
A5
350
4D
  3
A6
350
4E
  3
A7
350
4F
  3
A8
350
50
  3
A9
350
51
  3
B0
350
52
  3
B1
350
53
  3
B2
350
54
  3
B3
350
55
  3
B4
350
56
  3
B5
350
57
  3
B6
350
58
  3
B7
350
59
  3
B8
350
5A
  3
B9
350
5B
  3
C0
350
5C
  3
C1
350
5D
  3
C2
350
5E
  3
C3
350
5F
  3
C4
350
60
  3
C5
350
61
  3
C6
350
62
  3
C7
350
63
  3
C8
350
64
  3
C9
350
65
  3
D0
350
66
  3
D1
350
67
  3
D2
350
68
  0
LAYOUT
  5
1E
102
{ACAD_REACTORS
330
1A
102
}
330
1A
100
AcDbPlotSettings
  1

  2
none_device
  4

  6

 40
0.0
 41
0.0
 42
0.0
 43
0.0
 44
0.0
 45
0.0
 46
0.0
 47
0.0
 48
0.0
 49
0.0
140
0.0
141
0.0
142
1.0
143
1.0
 70
   688
 72
     1
 73
     0
 74
     5
  7

 75
    16
147
1.0
148
0.0
149
0.0
100
AcDbLayout
  1
Layout1
 70
     1
 71
     1
 10
0.0
 20
0.0
 11
420.0
 21
297.0
 12
0.0
 22
0.0
 32
0.0
 14
1.0000000000E+20
 24
1.0000000000E+20
 34
1.0000000000E+20
 15
-1.0000000000E+20
 25
-1.0000000000E+20
 35
-1.0000000000E+20
146
0.0
 13
0.0
 23
0.0
 33
0.0
 16
1.0
 26
0.0
 36
0.0
 17
0.0
 27
1.0
 37
0.0
 76
     0
330
1B
  0
LAYOUT
  5
26
102
{ACAD_REACTORS
330
1A
102
}
330
1A
100
AcDbPlotSettings
  1

  2
none_device
  4

  6

 40
0.0
 41
0.0
 42
0.0
 43
0.0
 44
0.0
 45
0.0
 46
0.0
 47
0.0
 48
0.0
 49
0.0
140
0.0
141
0.0
142
1.0
143
1.0
 70
   688
 72
     1
 73
     0
 74
     5
  7

 75
    16
147
1.0
148
0.0
149
0.0
100
AcDbLayout
  1
Layout2
 70
     1
 71
     2
 10
0.0
 20
0.0
 11
0.0
 21
0.0
 12
0.0
 22
0.0
 32
0.0
 14
0.0
 24
0.0
 34
0.0
 15
0.0
 25
0.0
 35
0.0
146
0.0
 13
0.0
 23
0.0
 33
0.0
 16
1.0
 26
0.0
 36
0.0
 17
0.0
 27
1.0
 37
0.0
 76
     0
330
23
  0
LAYOUT
  5
22
102
{ACAD_REACTORS
330
1A
102
}
330
1A
100
AcDbPlotSettings
  1

  2
none_device
  4
Letter_(8.50_x_11.00_Inches)
  6

 40
6.35
 41
6.35
 42
6.35000508
 43
6.35000508
 44
215.9
 45
279.4
 46
0.0
 47
0.0
 48
0.0
 49
0.0
140
0.0
141
0.0
142
1.0
143
1.0
 70
  1712
 72
     1
 73
     0
 74
     0
  7

 75
     0
147
1.0
148
0.0
149
0.0
100
AcDbLayout
  1
Model
 70
     1
 71
     0
 10
0.0
 20
0.0
 11
279.4
 21
215.9
 12
0.0
 22
0.0
 32
0.0
 14
0.0
 24
0.0
 34
0.0
 15
279.4
 25
215.9
 35
0.0
146
0.0
 13
0.0
 23
0.0
 33
0.0
 16
1.0
 26
0.0
 36
0.0
 17
0.0
 27
1.0
 37
0.0
 76
     0
330
1F
331
29
  0
MLINESTYLE
  5
18
102
{ACAD_REACTORS
330
17
102
}
330
17
100
AcDbMlineStyle
  2
Standard
 70
     0
  3

 62
   256
 51
90.0
 52
90.0
 71
     2
 49
0.5
 62
   256
  6
BYLAYER
 49
-0.5
 62
   256
  6
BYLAYER
  0
ACDBPLACEHOLDER
  5
F
102
{ACAD_REACTORS
330
E
102
}
330
E
  0
SCALE
  5
48
102
{ACAD_REACTORS
330
47
102
}
330
47
100
AcDbScale
 70
     0
300
1:1
140
1.0
141
1.0
290
     1
  0
SCALE
  5
49
102
{ACAD_REACTORS
330
47
102
}
330
47
100
AcDbScale
 70
     0
300
1:2
140
1.0
141
2.0
290
     0
  0
SCALE
  5
4A
102
{ACAD_REACTORS
330
47
102
}
330
47
100
AcDbScale
 70
     0
300
1:4
140
1.0
141
4.0
290
     0
  0
SCALE
  5
4B
102
{ACAD_REACTORS
330
47
102
}
330
47
100
AcDbScale
 70
     0
300
1:5
140
1.0
141
5.0
290
     0
  0
SCALE
  5
4C
102
{ACAD_REACTORS
330
47
102
}
330
47
100
AcDbScale
 70
     0
300
1:8
140
1.0
141
8.0
290
     0
  0
SCALE
  5
4D
102
{ACAD_REACTORS
330
47
102
}
330
47
100
AcDbScale
 70
     0
300
1:10
140
1.0
141
10.0
290
     0
  0
SCALE
  5
4E
102
{ACAD_REACTORS
330
47
102
}
330
47
100
AcDbScale
 70
     0
300
1:16
140
1.0
141
16.0
290
     0
  0
SCALE
  5
4F
102
{ACAD_REACTORS
330
47
102
}
330
47
100
AcDbScale
 70
     0
300
1:20
140
1.0
141
20.0
290
     0
  0
SCALE
  5
50
102
{ACAD_REACTORS
330
47
102
}
330
47
100
AcDbScale
 70
     0
300
1:30
140
1.0
141
30.0
290
     0
  0
SCALE
  5
51
102
{ACAD_REACTORS
330
47
102
}
330
47
100
AcDbScale
 70
     0
300
1:40
140
1.0
141
40.0
290
     0
  0
SCALE
  5
52
102
{ACAD_REACTORS
330
47
102
}
330
47
100
AcDbScale
 70
     0
300
1:50
140
1.0
141
50.0
290
     0
  0
SCALE
  5
53
102
{ACAD_REACTORS
330
47
102
}
330
47
100
AcDbScale
 70
     0
300
1:100
140
1.0
141
100.0
290
     0
  0
SCALE
  5
54
102
{ACAD_REACTORS
330
47
102
}
330
47
100
AcDbScale
 70
     0
300
2:1
140
2.0
141
1.0
290
     0
  0
SCALE
  5
55
102
{ACAD_REACTORS
330
47
102
}
330
47
100
AcDbScale
 70
     0
300
4:1
140
4.0
141
1.0
290
     0
  0
SCALE
  5
56
102
{ACAD_REACTORS
330
47
102
}
330
47
100
AcDbScale
 70
     0
300
8:1
140
8.0
141
1.0
290
     0
  0
SCALE
  5
57
102
{ACAD_REACTORS
330
47
102
}
330
47
100
AcDbScale
 70
     0
300
10:1
140
10.0
141
1.0
290
     0
  0
SCALE
  5
58
102
{ACAD_REACTORS
330
47
102
}
330
47
100
AcDbScale
 70
     0
300
100:1
140
100.0
141
1.0
290
     0
  0
SCALE
  5
59
102
{ACAD_REACTORS
330
47
102
}
330
47
100
AcDbScale
 70
     0
300
1/128" = 1'-0"
140
0.0078125
141
12.0
290
     0
  0
SCALE
  5
5A
102
{ACAD_REACTORS
330
47
102
}
330
47
100
AcDbScale
 70
     0
300
1/64" = 1'-0"
140
0.015625
141
12.0
290
     0
  0
SCALE
  5
5B
102
{ACAD_REACTORS
330
47
102
}
330
47
100
AcDbScale
 70
     0
300
1/32" = 1'-0"
140
0.03125
141
12.0
290
     0
  0
SCALE
  5
5C
102
{ACAD_REACTORS
330
47
102
}
330
47
100
AcDbScale
 70
     0
300
1/16" = 1'-0"
140
0.0625
141
12.0
290
     0
  0
SCALE
  5
5D
102
{ACAD_REACTORS
330
47
102
}
330
47
100
AcDbScale
 70
     0
300
3/32" = 1'-0"
140
0.09375
141
12.0
290
     0
  0
SCALE
  5
5E
102
{ACAD_REACTORS
330
47
102
}
330
47
100
AcDbScale
 70
     0
300
1/8" = 1'-0"
140
0.125
141
12.0
290
     0
  0
SCALE
  5
5F
102
{ACAD_REACTORS
330
47
102
}
330
47
100
AcDbScale
 70
     0
300
3/16" = 1'-0"
140
0.1875
141
12.0
290
     0
  0
SCALE
  5
60
102
{ACAD_REACTORS
330
47
102
}
330
47
100
AcDbScale
 70
     0
300
1/4" = 1'-0"
140
0.25
141
12.0
290
     0
  0
SCALE
  5
61
102
{ACAD_REACTORS
330
47
102
}
330
47
100
AcDbScale
 70
     0
300
3/8" = 1'-0"
140
0.375
141
12.0
290
     0
  0
SCALE
  5
62
102
{ACAD_REACTORS
330
47
102
}
330
47
100
AcDbScale
 70
     0
300
1/2" = 1'-0"
140
0.5
141
12.0
290
     0
  0
SCALE
  5
63
102
{ACAD_REACTORS
330
47
102
}
330
47
100
AcDbScale
 70
     0
300
3/4" = 1'-0"
140
0.75
141
12.0
290
     0
  0
SCALE
  5
64
102
{ACAD_REACTORS
330
47
102
}
330
47
100
AcDbScale
 70
     0
300
1" = 1'-0"
140
1.0
141
12.0
290
     0
  0
SCALE
  5
65
102
{ACAD_REACTORS
330
47
102
}
330
47
100
AcDbScale
 70
     0
300
1-1/2" = 1'-0"
140
1.5
141
12.0
290
     0
  0
SCALE
  5
66
102
{ACAD_REACTORS
330
47
102
}
330
47
100
AcDbScale
 70
     0
300
3" = 1'-0"
140
3.0
141
12.0
290
     0
  0
SCALE
  5
67
102
{ACAD_REACTORS
330
47
102
}
330
47
100
AcDbScale
 70
     0
300
6" = 1'-0"
140
6.0
141
12.0
290
     0
  0
SCALE
  5
68
102
{ACAD_REACTORS
330
47
102
}
330
47
100
AcDbScale
 70
     0
300
1'-0" = 1'-0"
140
12.0
141
12.0
290
     0
  0
ENDSEC
  0
EOF
